quinta-feira, 1 de maio de 2014

Oficina G3 - Incondicional


Conhea os filmes gospel que vo passar nos cinemas do Brasil: www.visaoespiritual.com.br/cinema.html


Clipe integrante do DVD MK Clipes vol.4, à venda nowww.mkshopping.com.br


Cifra da música


Incondicional
Oficina G3


Tom: G
Afinação DADGAD
Intro:
Harm... Harm...

D|----------------------------0----------------------
A|-------0-12-------12----------0---------0-------0--
G|-----0------12-------12---------0-------------0----
D|-2h4-----------12-------12------------0---2h4------
A|-0-------8------------------------0h3--------------
D|-0----------------8--------------------------------

Harm... Harm...
D|---------------12-----------0----------------------
A|-------0-12-------12----------0---------0----------
G|-----0------12-------12---------0---------0--------
D|-2h4--------------------12------------0------------
A|-0-------8------------------------0h3--------------
D|-0----------------8-------------------------3b-----

D5 C6(9) G9 G9/B C6(9)
Troquei as cores ao redor pra te mostrar
D5 C6(9) G9 G9/B C6(9)
Criei formas pra fazer você vê e entender
D5 C6(9) G9 G9/B C6(9)
Eu tentei falar, dando sons a Minha voz
D5 C6(9) G9 G9/B C6(9)
Você não Me ouviu, mas continuo a te esperar

D5 C6(9)
D|-----------------------------------------
A|--------0--------------------------------
G|-------0---------------------------------
D|-----4----2h4p2-----0h2p0---0-----------
A|---0------------3-3-------3--------------
D|-0---------------------------------------


G9 G9/B C6(9)
D|-----------------------------------------
A|-------0-----------0---------------------
G|-----0---0-------0---0---------0---------
D|---0-------0---0-------0-----0-----------
A|-------------2-----------2/3-------------
D|-3---------------------------------------


D5 C6(9)
D|-----------------------------------------
A|-----------------------------------------
G|-----0---------0-------------------------
D|-2h4---2h4p2-----0---0h2p0---0-----------
A|-0-----------3-----3-------3-------------
D|-0---------------------------------------

Refrão:
D5 A4 Em7(11)
Eu acredito em você
D5
Ouça a Minha voz
D5 A4
Te estendo Minhas mãos
G4(9) Em7(11) D5
Meu amor é incondicional

D5 C6(9) G9 G9/B C6(9) D5
Quero fazer nascer o sol de um novo dia pra você
C6(9) G9 G9/B C6(9)
Trazer a Minha luz pra te mostrar os Meus caminhos
D5 C6(9) G9 G9/B C6(9)
Eu vou estar sempre aqui, esperando por você
D5 C6(9) G9 G9/B C6(9)
Eu não Me cansarei de te mostrar

Refrão:
D5 A4 Em7(11)
Eu acredito em você
D5
Ouça a Minha voz
D5 A4
Te estendo Minhas mãos
G4(9) Em7(11) D5
Meu amor é incondicional
Passagem - dedilhado:

D5 Bm7 A4
D|------2--/5---4---------------------------------0-
A|----5------------------0-----------0------------0-
G|---------/3---2------0---0-------0---0-------0--0-
D|-/4--------------2h4-------4---4-------4---4----4-
A|-----------------------------2-----------0--------
D|--------------------------------------------------


C6(9/4+)
D|------------------0---0---------------------------
A|-0----------0-----------0-------------------------
G|---0-----0----0-----0-----0-----------------------
D|-------4--4-----4---------------------------------
A|-----3--------------------------------------------
D|----------------------------0---------------------


D5 Bm7 A4 C6(9/4+)
D|--------------------------------0-----------------
A|-------0-----------0------------0--0--------------
G|-----0---0-------0---0-------0--0----0------------
D|-2h4-------4---4-------4---4----4------4----------
A|-------------2-----------0-------------3----------
D|--------------------------------------------------

D5 Bm7 A4 C6(9/4+)
Quanto tempo mais, qual a prova maior que a cruz
D5 Bm7 A4 C6(9/4+)
Me entreguei por ti, esta é a prova maior de amor (2x)

Refrão:
D5 A4 Em7(11)
Eu acredito em você
D5
Ouça a Minha voz
D5 A4
Te estendo Minhas mãos
G4(9) Em7(11) D5
Meu amor é incondicional





Autores: Marcelo Elias e Mauro Henrique
Direção: Hugo Pessoa
Produção executiva: Mk Music