terça-feira, 20 de maio de 2014

Anderson Freire - Raridade (LOUVORZÃO 2014)



Apresentação ao vivo do cantor Anderson Freire no palco do Louvorzão 2014, evento gospel realizado pela MK Music e Rádio 93 FM na Quinta da Boa Vista - Rio de Janeiro - 18/04/2014.


========================================­===

Cifra da música


Raridade 
Anderson Freire


Compositor: Anderson Freire


Tom: D
Intro: D A/C# Bm7 A G D/F# Em7
D A/C# Bm7
Não consigo ir além do teu olhar
A G
Tudo o que eu consigo é imaginar
D/F# Em7 A4 A
A riqueza que existe dentro de você
D A/C# Bm
O ouro eu consigo só admirar
A G
Mas te olhando eu posso a Deus adorar
D/F# Em7 A4 A Bm
Sua alma é um bem que nunca envelhecerá

G D
O pecado não consegue esconder
A Bm
A marca de Jesus que existe em você
G D
O que você fez ou deixou de fazer
A Em7
Não mudou o inicio Deus escolheu você
D/F# G Bm7
Sua raridade não está naquilo que você possui
Em7 D/F# G
Ou que sabe fazer isso é mistério de Deus com você

D A/C# Bm7
Você é um espelho que reflete a imagem do Senhor
A G
Não chore se o mundo ainda não notou
D/F# Em7 A4 A
Já é o bastante Deus reconhecer o seu valor
D A/C# Bm7
Você é precioso mais raro que o ouro puro de Ofir
A G
Se você desistiu Deus não vai desistir
D/F# Em7
Ele está aqui pra te levantar
A4 A 1ª vez: Bm7
Se o mundo te fizer cair 2ª vez solo: Em7 G D4 D C Em7 G A4 A B4 B

O ouro eu consigo...
E B/D# C#m
Você é um espelho que reflete a imagem do Senhor
C#m/B A
Não chore se o mundo ainda não notou
E/G# F#m B4 B
Já é o bastante Deus reconhecer o seu valor
E B/D# C#m
Você é precioso mais raro que o ouro puro de Ofir
C#m/B A
Se você desistiu Deus não vai desistir
E/G# F#m
Ele está aqui pra te levantar
B4 B ( f#m G#m você é um espelho...) (terminar
Se o mundo te fizer cair

Final: A E/G# F#m7 Em | A E/G# F#m7 B4 B E

E|------------------------------------------------
A|------------------------------------------------
D|----------------------10------------------------
G|---10b12--10--10b13------7-8--------------------
B|--------------------8---------------------------
E|------------------------------------------------

E|------------------------------------------------
A|------------------------------------------------
D|---8-10-----------------------------------------
G|--------8----12b13-12-13-12--8-10b1213-12-------
B|----------11------------------------------------
E|------------------------------------------------


E|------------------------------------------------
A|------------------------------------------------
D|------------------------------------------------
G|-10s12------------------------------------------
B|-------11-13------------------------------------
E|-------------11-13b-13--15b16-15-8-10-11--------


E|------------------------------------------------
A|------------------------------------------------
D|------------------------------------------------
G|--8---------------------------------------------
B|----9-------------------------------------------
E|------8-11-10b11-10-11-10-----------------------


E|-------------------------------------------------------
A|-------------------------------------------------------
D|-13-15--------15---------------------------------------
G|-------12-13-----12-13-15------------------------------
B|--------------------------13-15-16---------------------
E|-----------------------------------13--14-14--14-14s0--




Direção: Dayane Andrade
Produção executiva: Mk Music