quinta-feira, 22 de maio de 2014

PG - Imagem e Semelhança (LOUVORZÃO 2014)



Apresentação ao vivo do cantor PG no palco do Louvorzão 2014, evento gospel realizado pela MK Music e Rádio 93 FM na Quinta da Boa Vista - Rio de Janeiro - 18/04/2014.


Cifra da música


Imagem e Semelhança 
PG


Tom: G
INTRO 2X: G D/F# C
G C9 G
Muitos anos se passaram e o meu amor
D/F# C
Aumenta a cada dia mais
G D/F# C G
Em momentos, forte eu me senti
D/F# C G
Outras vezes, tão fraco eu me abati
D/F# C G
Momentos de alegria ao Te servir
D/F# C G D/F# C
Dias de dores por não conseguir Te ouvir

Am G D9
Mesmo com a força do tempO
Am
Levando os sonhos e os amigos
G C9
Não desisti de você
Am G D9
A salvação que nem mesmo
Am
Os anjos receberam
G C9
O Senhor deste pra mim

REFRÃO:
G D Am C9
Na Tua imagem e semelhança
G D C9
Oh, Deus, foi que eu nasci
G D Am C
A minha história no Teu sangue
G D C
Eu escrevi até aqui

(G D Am C )(x2)
Am G D9
Mesmo com a força do tempO
Am
Levando os sonhos e os amigos
G C9
Não desisti de você
Am G D9
A salvação que nem mesmo
Am
Os anjos receberam
G C9
O Senhor deste pra mim

REFRÃO:
G D Am C9
Na Tua imagem e semelhança
G D C9
Oh, Deus, foi que eu nasci
G D Am C
A minha história no Teu sangue
G D C
Eu escrevi até aqui

SOLO: G D Am C

E|------------------------------------------------------------------------------------------------------|
B|------------------------------------------------------------------------------------------------------|
G|-7-11-12-7-7-7\---11-12-14(15)-12-11-12-14~---11-12-16(17)(17)(17)-14-12-14/16-16~-16-14-12-11-12(13)-|
D|----------------12--------------------------12--------------------------------------------------------|
A|------------------------------------------------------------------------------------------------------|
E|------------------------------------------------------------------------------------------------------|

E|-------------------------------------------------------------------------------------------------------------------|
B|--------12/15-13-12-10--------/17-17-15-13-15--------17(18)(18)(18)-15-13-15/17-17~--------------------------------|
G|--11-12-----------------11-12------------------11-12--------------------------------12-11-9------------------------|
D|12--------------------12---------------------12---------------------------------------------12-10-9---------------|
A|---------------------------------------------------------------------------------------------------12-10-9-7-9/10-|
E|-------------------------------------------------------------------------------------------------------------------|


REFRÃO: 2X
G D
Na Tua imagem e semelhança
G D Em C
Oh, Deus, foi que eu nasci
G D C
A minha história no Teu sangue
G D Em C
Eu escrevi até aqui.



Direção: Dayane Andrade
Produção executiva: Mk Music