quinta-feira, 22 de maio de 2014

Oficina G3 - Diz (LOUVORZÃO 2014)



Apresentação ao vivo da banda Oficina G3 no palco do Louvorzão 2014, evento gospel realizado pela MK Music e Rádio 93 FM na Quinta da Boa Vista - Rio de Janeiro - 18/04/2014.


========================================­==


Cifra da música


Diz
Oficina G3


Tom: F
Afinação: C F Bb Eb G C
Intro:
Harm.... Harm....

C |---------------------------------------|
G |---------------------------------------|
Eb|---------------------------------------|(7x)
Bb|---------------------------------------|
F |------------------3---3---3----------|
C |-3-3-3-3-3-3---3---3---3--------|


Riff 1:


C |------------------------------------------------|
G |------------------------------------------------|
Eb|------------------------------------------------|
Bb|-2-2-2-2----12\11-------------------------|
F |-2-2-2-2-------------------------------------|
C |-0-0-0-0----10\9---0-9p7--0-10h12--|


Riif 2:


C |----------------------------------------------------|
G |---------------10\9-------------------------------|
Eb|----------------------------------------------------|
Bb|-2-2-2-2----7\6---------------------------------|
F |-2-2-2-2------------0-9p7---5h7-------------|
C |-0-0-0-0--------------------9-------------------|

C
Palavras são lançadas
Em algum lugar repousarão
Levam em si a vida
Ou vida em morte tornarão

C
Belas palavras
Podem até esconder a intenção
E o coração impuro
Será sondado e cobrado

C Bb D# F
O fruto da palavra que lançou, colherá
C Bb D# F
Palavras uma vez lançadas, nunca voltarão

(C D# F)
Diz o que você tem pra dizer
(C D# F) C F
Diz qual é sua intenção, fale
(C D# F)
Diz se há algo de bom
(C D# F) C F
Se isto está em você, fale

Riff INTRO
C
Lentes distorcem o olhar
Alteram, turvam a visão
Trazem à boca o amargo
O fruto da insatisfação

C Bb
Se os olhos forem bons
D# F
Então tudo será bom
C
São as janelas
Bb D# F
Que trazem luz ou escuridão

(C D# F)
Diz o que você tem pra dizer
(C D# F) C F
Diz qual é sua intenção, fale
(C D# F)
Diz se há algo de bom
(C D# F) C F
Se isto está em você, fale



Direção: Dayane Andrade
Produção executiva: Mk Music