quinta-feira, 22 de maio de 2014

Oficina G3 - Naves Imperiais (LOUVORZÃO 2014)



Apresentação ao vivo da banda Oficina G3 no palco do Louvorzão 2014, evento gospel realizado pela MK Music e Rádio 93 FM na Quinta da Boa Vista - Rio de Janeiro - 18/04/2014.


========================================­=


Cifra da música


Naves Imperiais 
Oficina G3


Tom: D

Intro 3x: Bm Em G7+ A
E|-----x-9-10-12-9------------------------------------------------------|
B|---x-------------10--------------------------------10p7-------9/11~~--|
G|-x------------------9-7-6-7/9~~-------------6-7-9-------9-7-9---------|
D|-------------------------------------7-8-9----------------------------|
A|----------------------------------------------------------------------|
E|----------------------------------------------------------------------|

E|------------14-12-10-9-12-10-9-10p9--------------------9h-10-p9-------|
B|------10-12-------------------------10------------8/10-----------10~~-|
G|-(11)----------------------------------9-11/12------------------------|
D|----------------------------------------------------------------------|
A|----------------------------------------------------------------------|
E|----------------------------------------------------------------------|


Riff Principal:

E|------------------------------------------------|
B|------------------------------------------------|
G|------------------------------------------------|
D|-4-----------------4----------------------------|
A|-0h2--2-0-2-0-2-0--0h2--2-0-2-0-2-0--5---7--10-|
E|-------------------------------------3---5--10-|


Bm
Somos como naves imperiais
G A
A serviço do nosso Rei
Bm
vasos de guerra, onde só há ida
G
E não há tempo para olhar
A
Voltar para trás

Bm G A
Somos jovens que crêem no Deus vivo
Em G A
Que enviou Seu Filho para nos salvar

Bm Em G7+ A
Aleluia, aa Aleluia a a
Em G
Nosso comandante é Jesus Cristo,
A
Filho de Deus (2x)


Intro 2x: Bm Em G7+ A
E|-----x-9-10-12-9------------------------------------------------------|
B|---x-------------10--------------------------------10p7-------9/11~~--|
G|-x------------------9-7-6-7/9~~-------------6-7-9-------9-7-9---------|
D|-------------------------------------7-8-9----------------------------|
A|----------------------------------------------------------------------|
E|----------------------------------------------------------------------|

E|------------14-12-10-9-12-10-9-10p9--------------------9h-10-p9-------|
B|------10-12-------------------------10------------8/10-----------10~~-|
G|-(11)----------------------------------9-11/12------------------------|
D|----------------------------------------------------------------------|
A|----------------------------------------------------------------------|
E|----------------------------------------------------------------------|



Direção: Dayane Andrade
Produção executiva: Mk Music