quinta-feira, 1 de maio de 2014

Novo som - Herói dos heróis



Conhea os filmes gospel que vo passar nos cinemas do Brasil: www.visaoespiritual.com.br/cinema.html


Esta canção faz parte do álbum Os Arrebatados Remix Vol.1 do grupo Os Arrebatados.


Cifra da música


Heroi Dos Herois 
Novo Som


Tom: C
(intro) Am
Am D/A
Uma missão coroada de paz
F/A G/A
Alicerçada nas mãos
Am ( E C B A )
Do supremo Criador
Am D/A
No coração exalava o amor
F/A G/A
Incompreendido na Terra,
Am G/B
A Estrela da manhã
C
Mesmo sofrendo
G
Ele não reclamou

Olhou pro céu
Dm F Am G/B
E pediu pela humanidade
C
Naquela cruz
G
O Herói dos heróis

Venceu a morte
Dm7 Em7 F G Am
E levoooooou...... sobre si os meus pecados
Am D/A
Ele deixou sua glória no céu
F/A G/A Am
Veio revelar a luz do Sol da justiça
D/A
Ele ensinou a verdade e o amor
F/A G/A
Provou do beijo da morte,
Am
Se entregou em meu lugar
C
Mesmo sofrendo
G
Ele não reclamou

Olhou pro céu
Dm F Am G/B
E pediu pela humanidade
C
Naquela cruz
G
O Herói dos heróis

Venceu a morte
Dm7 Em7 F G Am
E levoooooou...... sobre si os meus pecados

(solo) Am F C G Am F C G Dm7 Em7 F ( G ) Am

E|-12~-7-8-7---------------------------------|
B|-----------10p8p7--------------------------|
G|------------------9-7-------------5/7------|
D|----------------------10-9----7-------9/10-|
A|---------------------------10--------------|
E|-------------------------------------------|

E|-17~------------------------------14-15-17-15~-15-14-----------------|
B|--------------------------14-15-17-------------------17-15-14--------|
G|---------------------14-16------------------------------------16-14/-|
D|-------------14-16-17------------------------------------------------|
A|-----14-16-17--------------------------------------------------------|
E|---------------------------------------------------------------------|

E|---------------------------------------------------------------------14-15-15/17-17~-|
B|-17-15-14---/15------/17-------/18-------------------------14-15-17------------------|
G|---------16-----------------------------------------14-16----------------------------|
D|-----------------/12------/14-------/15---14-16-17-----------------------------------|
A|-------------------------------------------------------------------------------------|
E|-------------------------------------------------------------------------------------|


Am D/A
No coração exalava o amor
F/A G/A
Incompreendido na Terra,
Am G/B ( A C D E G D C B C )
A Estrela da manhã
C
Mesmo sofrendo
G
Ele não reclamou

Olhou pro céu
Dm F Am G/B
E pediu pela humanidade
C
Naquela cruz
G
O Herói dos heróis

Venceu a morte
Dm7 Em7 F G Am
E levoooooou...... sobre si os meus pecados...

(final 4x) Am D/A F/A G/A Am


Produção executiva: Mk Music