quinta-feira, 1 de maio de 2014

Oficina G3 - Te escolhi



Conhea os filmes gospel que vo passar nos cinemas do Brasil: www.visaoespiritual.com.br/cinema.html


Esta canção faz parte do álbum Os Arrebatados Remix Vol.1 do grupo Os Arrebatados.




Cifra da música


Te Escolhi 
Oficina G3


Tom: C#
Bbm9 Bbm9/Ab
Você já me procurou
Bbm/Gb
Por muitas vezes tentou

Como cego na multidão
Bbm9 Bbm9/Ab
Que procura seu caminho
Bbm/Gb (Gb F Db Bb)
Mas sozinho nada encontra


E|-------------------------------|
B|-------------------------------|
G|-------------------------------|
D|---4-3-------------------------|
A|-------4-----------------------|
E|---------6---------------------|


Bbm9 Bbm9/Ab
Quantas vezes eu te chamei
Bbm/Gb (Gb F Db Bb)
E você não entendeu


E|-------------------------------|
B|-------------------------------|
G|-------------------------------|
D|---4-3-------------------------|
A|-------4-----------------------|
E|---------6---------------------|


Fm7 Gb
Se você parasse um pouco e ouvisse a minha voz
Db9 Ab
Te escolhi, te busquei
Bbm Gb
Sempre ao seu lado eu caminhei
Db9 Ab Bb Db9
Eu sofri por você

Bbm9 Bbm9/Ab
Eu te procuro
Bbm/Gb
E você por tantos lugares buscou


E|-------------------------------|
B|--------6b/---9/\----11--------|
G|-------------------------------|
D|-------------------------------|
A|-------------------------------|
E|-------------------------------|


Bbm Bbm/Ab Bbm/Gb
Mas nunca entendeu que eu sempre estive perto de você

(Gb F Db Bb)

E|-------------------------------|
B|-------------------------------|
G|-------------------------------|
D|---4-3-------------------------|
A|-------4-----------------------|
E|---------6---------------------|


Bbm Ab Gb
Eu te escolhi, quero te conquistar
Gb- F Eb Bb
Te mostrar o verdadeiro amigo


E|-------------------------------|
B|-------------------------------|
G|-------------------------------|
D|---4-3-------------------------|
A|-------6-----------------------|
E|---------6---------------------|


Fm7 Gb
Se você parar e ouvir a minha voz


E|----------------------------------|
B|--9--6----6-/-4-----------------|
G|--------6--------6---------6----|
D|--------------------4-3-4-------|
A|----------------------------------|
E |----------------------------------|


Db9 Ab
Te escolhi, te busquei
Bbm Gb
Sempre ao seu lado eu caminhei
Db9 Ab Bb Db9
Eu sofri por você
Gb
Na cruz provei o meu amor

Db9 Ab
Te escolhi, te busquei
Bbm Gb
Sempre ao seu lado eu caminhei
Db9 Ab Bb
Eu sofri por você

(solo) (1:30 à 2:02)
E|-----------------------|-----------------------------|--------------------------|
B|-----------------------|-7/9-7-6---------------------|---------11-13-14-14b-14~-|
G|-11~-10~--6---8b10-----|--------8-6-5-5/8~~-5/13/10~~|-10-11-13-----------------|
D|-----------8-----------|-----------------------------|--------------------------|
A|-------------------4~~-|-----------------------------|--------------------------|
E|-----------------------|-----------------------------|--------------------------|

E|--------------------|-------------|------------------------------------------|
B|-13b14-13-----13----|-16-16b18-14~|--------------------------13-14-16-16b18~-|
G|---------13-15--13~-|-------------|--------10-11-13-11-13-15-----------------|
D|--------------------|-------------|10-11-13----------------------------------|
A|--------------------|-------------|------------------------------------------|
E|--------------------|-------------|------------------------------------------|

E|-16-13----------------------------11-14-11-13-9-------------------------------|
B|------14------------------11-13-14-------------11-----------------------------|
G|--------13-10-----10-11-13-----------------------10--------------10-11-13-10~-|
D|-------------11-13---------------------------------13-11-10-11-13-------------|
A|------------------------------------------------------------------------------|
E|------------------------------------------------------------------------------|

E|---------10h13p10------------------------16-16-|
B|-------11--------13b15~~-16bfull-16b-16b----16-|
G|-----10----------------------------------------|
D|---12------------------------------------------|
A|-13--------------------------------------------|
E|-----------------------------------------------|

Te escolhi,
E|---------------------------------18-19-20b21~~~-|
B|-------------------------18-19-20---------------|
G|-----------------17-18-20-----------------------|
D|---------16-18-20-------------------------------|
A|-16-18-20---------------------------------------|
E|------------------------------------------------|


te busquei, sempre ao teu lado eu caminhei,.

E|-20b21-20r~~--16b18-16r-16b18-16r-16b18~~-|
B|------------------------------------------|
G|------------------------------------------|
D|------------------------------------------|
A|------------------------------------------|
E|------------------------------------------|




Produção executiva: Mk Music