segunda-feira, 12 de maio de 2014

Oficina G3 - Aos pés da cruz (Vídeo da Letra)



Esta canção faz parte do CD Histórias e Bicicletas da banda Oficina G3.
COMPRE ESTE CD: http://www.mkshopping.com.br/cd/grupos-bandas/oficina-g3/historias-e-bicicletas-reflexoes-encontros-e-esperanca.html?utm_source=youtube&utm_medium=mkmusicnews&utm_content=Video_Letra&utm_campaign=Oficina_G3-AOS_PES_DA_CRUZ
ÁLBUM DIGITAL: https://itunes.apple.com/br/album/historias-e-bicicletas/id642620443


Cifra da música


Aos Pés da Cruz
Oficina G3


Tom: D
Intro (2x):
E|---------------------------|
A|--4-5-4-5-4-7--4-5-4-5-2-4-|
A9 A F#m7 F#m Em D|--6-7-6-7-6-9--6-7-6-7-4-6-| ou | C#5 D5 C#5 D5 C#5 E5 |
G|--6-7-6-7-6-9--6-7-6-7-4-6-| | C#5 D5 C#5 D5 B5 C#5 |
B|---------------------------|
E|---------------------------|

A9 A
Meu Jesus maravilhoso és
F#m F#m7
Minha inspiração a prosseguir
G
E mesmo quando tudo não vai bem
D9
Eu continuo olhando para Ti.
A9 A
Pois sei que Tu tens o melhor pra mim
F#m
Há um segredo no Teu coração
Em
Oh! Dá-me forças pra continuar
Bm D
Guardando a promessa em oração.

A9 A9/C#
Firme oh! Deus está o meu coração
G
Firme nas promessas do Senhor
D9
Eu continuo olhando para Ti
A9
E assim eu sei que posso prosseguir

Em
E mesmo quando eu chorar
A Bm7
As minhas lágrimas serão
A9 G
Para regar a minha fé
B A9
E consolar meu coração
Em
Pois o que chora aos pés da cruz
A Bm7
Clamando em nome de Jesus
A9 G
Alcançará de Ti Senhor
A9
Misericórdia Graça e luz

(Intro)
A9
Teu grande amor não cessa
F#m7
Eterno não tem fim
Em
Quão grande és Tu Senhor
G
Quão grande és pra mim
A9
Tua graça é o meu refúgio
F#m
Descanso no Teu poder
Em
Maravilhoso és
G G9
Maravilhoso és pra mim

A9 A9/C#
Firme oh! Deus está o meu coração
G
Firme nas promessas do Senhor
D9
Eu continuo olhando para Ti
A9
E assim eu sei que posso prosseguir

Em
E mesmo quando eu chorar
A Bm7
As minhas lágrimas serão
A9 G
Para regar a minha fé
B A9
E consolar meu coração
Em
Pois o que chora aos pés da cruz
A Bm7
Clamando em nome de Jesus
A9 G
Alcançará de Ti Senhor
A9
Misericórdia Graça e luz

Base Solo (3x):
E|--5-5-5-5--5-5-5-5--5-5-5-5------------------------------|
A|--7-7-7-7--7-7-7-7--7-7-7-7---7-7-7-7--7-7-7-7--7-7-7-7--|
D|--7-7-7-7--7-7-7-7--7-7-7-7---9-9-9-9--9-9-9-9--9-9-9-9--|
G|------------------------------9-9-9-9--9-9-9-9--9-9-9-9--|
B|---------------------------------------------------------|
E|---------------------------------------------------------|

E|--------------3-------------------5---|
A|------7-5-7---5--5-5--5-5---4-5-7-7---|
D|--5-4-------4-5--5-5--5-5---6-5-9-7---|
G|-----------------7-7--7-7---6-7-9-----|
B|--------------------------------------|
E|--------------------------------------|

A9 A9/C#
Firme oh! Deus está o meu coração
Em
Firme nas promessas do Senhor
G
Eu continuo olhando para Ti
D A9
E assim eu sei que posso prosseguir
Em
E mesmo quando eu chorar
A Bm7
As minhas lágrimas serão
A9 G
Para regar a minha fé
B A9
E consolar meu coração

Em7
Pois o que chora aos pés da cruz
A Bm7
Clamando em nome de Jesus
A9 G
Alcançará de Ti Senhor
D A9
Misericórdia Graça e luz

Fim (1x):