sábado, 6 de setembro de 2014

Oficina G3 - Confiar



Esta canção faz parte do álbum Histórias e Bicicletas, da banda Oficina G3.

==================================
Cifra da música
Confiar 
Oficina G3

Tom: E
Afinação: DADGAD
Intro: E5 G5 D

D|------------------------------------------------|
A|-----------------------------------------9/10/9-|
G|------------0------------------0----------------|
D|-----0--2/4---0------------------5/7-777--7-7-7-|
A|--------------------5---7-7/9----7/9-999--9-9-9-|
D|-0h2--2------------5-5--------------------------|


D|------------------------------------------------|
A|-------------0---------------------------9/10/9-|
G|---------------0---------------0----------------|
D|-----0--2/4----------------------5/7-777--7-7-7-|
A|--------------------5---7-7/9----7/9-999--9-9-9-|
D|-0h2--2------------5-5--------------------------|


E5 G5 Bb5(9) F5(9) E5
Sentado cansado Fecho os olhos pra poder ver além
G5 A/F#
do que eu posso entender

E5 G5 Bb5(9) F5(9)
sei que a Razão não responde aos os meus anseios
E5 G5 A/F#
o que eu posso esperar?

G9 Bb5(9) A F5(9)
Enquanto caminhando aqui não é o meu lugar...
G9 Bb5(9) A G9
do tempo que me resta levo a Fé no Caminhar

REFRÃO:
Bb5(9) G D
Vou Confiar
Bb5(9) G D
E me entregar.

Intro 2: E5 G5 D (2x)

D|---------------5-5--------9p0-------------------------|
A|---------------5-5---10/12----------------------------|
G|----0-2-----0--0-0---------9/11-11-11-12-14-9-9/11-11-|
D|--------2/4--0-0-0------------------------------------|
A|---------------4-4---------7/9--9--9--10-12-7-7/9--9--|
D|-0h2-----------5-5------------------------------------|


E5 G5 Bb5(9) F5(9)
Vou desfrutar matar minha sede
E5 G5 A/F#
desfazer o nó que me sufoca
E5 G5 Bb5(9) F5(9) E5 G5
sei o que esperar um lugar onde o Fruto não precisa esperar
A/F#
a próxima estação..

G9 Bb5(9) A F5(9)
Enquanto caminhando aqui não é o meu lugar...
G9 Bb5(9) A G9
do tempo que me resta levo a Fé no Caminhar

REFRÃO:
Bb5(9) G D
Vou Confiar
Bb5(9) G D
E me entregar.

Bb5(9) G5 D5
a cada dia basta o seu próprio mal
Bb5(9) G5 D
quero só Descansar...


D|------------------------------------------|
A|------------------------------------------|
G|--------------------------------------0---| 8X
D|------------------0-5-7-5---7-----------0-|
A|-3h5---5-5p3p0-0h3--------8---8-8/10------|
D|-----0------------------------------------|


Se minha mente me atormenta com a dor
lembro das palavras que deixou
o brilho da tua luz sinto teu calor
o Teu conforto me alcançou.

Solo(base):
F5 G5
D|-----------------------1-1-1-1---3-3-3-3-|
A|-----------------------1-1-1-1---3-3-3-3-|
G|-----------------------2-2-2-2---4-4-4-4-| 4X
D|-------------------0---3-3-3-3---5-5-5-5-|
A|-3h5---5-5p3p0-0h3-----3-3-3-3---5-5-5-5-|
D|-----0--0--------------1-1-1-1---3-3-3-3-|


REFRÃO:

(A guitarra solo faz isso enquanto a base faz Bb5(9):

D|----------------|
A|----------------|
G|----------------|
D|---------10---8-|
A|-----7-8----8---|
D|-5-6------------|


Bb5(9) G D
Vou Confiar
Bb5(9) G D
E me entregar.


D|-----------------------|
A|-----------------------|
G|12-11-9-7-9-9-11/12-11-|
D|-----------------------|
A|10-9--7-5-7-7-9-/10-9--|
D|-----------------------|


Bb5(9) G5 D5
a cada dia basta o seu próprio mal
Bb5(9) G5 D
quero só Descansar...


Direção: Hugo Pessoa
Autores: Mauro Henrique, Duca Tambasco, Juninho Afran e Jean Carlos