sexta-feira, 5 de setembro de 2014

Aline Barros - Sonho de Cristo



Gravado no Centro de Cabo Frio - RJ
Coreografia Original do video: FLASH MOB GOSPEL OFICIAL 2011
Assista também a gravação da Praia do Forte :

Jesus,Jesus é a salvação


Cifra da música


Sonho de Cristo 
Aline Barros

Compositor: Aline Barros


Tom: D
Intro 4x:

D Bm G
E|---------------------------------------|
B|-5-5-5-3-3-3-5-5-5-3-3-3-8-8-7-7-------|
G|---------------------------------------|
D|---------------------------------------|
A|---------------------------------------|
E|---------------------------------------|


D
Despertam aqueles que dormem
Bm G
As almas aflitas gritam por amor
D
Nós somos geração eleita, o dever nos chama
Bm ( D G )
Digam eis-me aqui Senhor
Bm G
Nossa juventude tem a força
D A/C#
Que os fracos precisam
Bm G
Nossa juventude tem a cura
D A/C#
Que os homens procuram
Bm G
Nossa juventude tem a paz
D A/C#
Que as guerras não frustram
Bm A G
Cristo está vivo em cada um de nós

E|----------------------------------------------------------------|
B|----------------------------------------------------------------|
G|----------------------------------------------------------------|
D|---------------------------------------------4-4----------------|
A|-2-2-2-4-4-4-5-5-------4-4-4-5-5-5-5-5-7-7-7-----4-4-4-5-5-5-7-7|
E|-----------------3-3-3------------------------------------------|


(O riff acima é executado junto com o final da estrofe acima, quando repete a música.)

E B
Vem, viva o sonho do Senhor
C#m
Vamos pregar o Seu amor
A G#
Somos a geração que neste tempo Ele levantou

E B
Vamos incendiar essa nação
C#m
Vivendo o amor e o perdão
A
Cantando bem alto que Jesus,
D G D G
Jesus é salvação!
(Durante as frases "Ele levantou" e "...é a salvação", é executado este riff abaixo...)


E|---------------|
B|---------------|
G|---------------|
D|-6-7-6---6~~---|
A|-------7-------|
E|---------------|