terça-feira, 4 de novembro de 2014

André e Felipe - Chuva de Poder



Música: Chuva de Poder - Composição: André e Felipe © 2011
Contato com a Dupla: Agenda em Igrejas (47) 3028-4034 (47) 9655-1087 andreefelipeoficial@hotmail.com
Agenda em Eventos: (27) 3061-7788

Comprar CD (27) 3061-7777

Cifra da música
Chuva de Poder 
André e Felipe

Compositor: André / Felipe
Tom: F
Intro:

E|--1-1-1-1-1-1-1--3-3-3-3-3-3-3--5-5-5-5-5-5-5-5--3-3-3-----|
B|--1-1-1-1-1-1-1--1-1-1-1-1-1-1--3-3-3-3-3-3-3-3--1-1-1-----|
G|--------------------------------------------------------6-6|
D|--------------------------------------------------------3-3|
A|-----------------------------------------------------------|
E|-----------------------------------------------------------|

E|--1-1-1-1-1-1-1--3-3-3-3-3-3-3--5-3------|
B|--1-1-1-1-1-1-1--1-1-1-1-1-1-1--3-1------|
G|-------------------------------------6-6-|
D|-------------------------------------3-3-|
A|-----------------------------------------|
E|-----------------------------------------|

E|--------------|
B|--1-3-1-------|
G|-------3------|
D|---------3-5-7|
A|--------------|
E|--------------|


Dm Bb
Mais uma vez a solidão bateu à porta
Dm
Me encontrou sem lagrimas pra derramar
Bb
O sol se pôs e a escuridão chegou agora
Dm
Será que o meu barco vai naufragar
Bb
O desespero bate forte no meu peito
Dm
E faz meu corpo inteiro se arrepiar
Bb
Eu tenho que tomar uma atitude agora
Dm
Porque o tempo passa e não vai esperar

Dm Bb
Vai com vento agora essa , minha frustração
F
Da minha vitória eu não abro mão
C
Com dificuldades eu cheguei aqui
Dm
No meio do caminho , não vou desistir
Bb
E podem vir as ondas que por cima vou passar
F
Com Jesus no barco vou atravessar
C
Não estou sozinho aqui nesse deserto
Dm
Sei que a vitória ele vai mandar

Dm Bb F C
Ieie ieie chove chove chuva chuva de poder (2x)


Gravadora: Uni Records
Produção: Zepa Cine Vídeo