quarta-feira, 5 de novembro de 2014

André e Felipe - Paz E Amor



Music video by André e Felipe performing Paz E Amor. (C) 2013 UniRecords
Cifra da música
Paz e Amor 
André e Felipe

Compositor: André / Felipe
Tom: C
Am F
O-o-o-ô
C
Paz e amor paz e amor
G (2 x)
O-o-o-ô
E Am
Paz e amor paz e amor

F C
O-o-o-ô eu vou levando paz e amor
G E Am
O-o-o-ô foi esse Deus que me salvou

F C
O-o-o-ô eu vou levando paz e amor
G E Am
O-o-o-ô foi esse Deus que me salvou

Intro: Am F C G E (2 x)

E|--------------------------------------------------------
B|----------------5-6--6-6-6-5--5-5-5-3--3-3-3-5-3-1------
G|----2-2-2-2-4-5------------------------------------4-2--
D|--------------------------------------------------------
A|--------------------------------------------------------
E|--------------------------------------------------------


Am G
Foi um pedido que eu fiz e eu não me esqueci
Am
De atravessar o mundo inteiro e o meu país
G
Sacudi a poeira do pé e cantei Jesus Cristo é o meu Rei
Am
Com ele eu vou cantar quero ver o sol raiar
G
Essa noite é dia é festa alegria eu não me canso de pular
E Am
Levante a mão que eu vou profetizar

G
Levante a mão que eu vou profetizar chega de sofrer pare de chorar
Am
Que a vitória vai chegar
G
Vai vai vai vai
Am
Que a vitória vai chegar

F C
O-o-o-ô eu vou levando paz e amor
G E Am
O-o-o-ô foi esse Deus que me salvou

F C
O-o-o-ô eu vou levando paz e amor
G E Am
O-o-o-ô foi esse Deus que me salvou

Intro: Am F C G E (2 x)

E|--------------------------------------------------------
B|----------------5-6--6-6-6-5--5-5-5-3--3-3-3-5-3-1------
G|----2-2-2-2-4-5------------------------------------4-2--
D|--------------------------------------------------------
A|--------------------------------------------------------
E|--------------------------------------------------------


Am G
Ainda me lembro como foi difícil aqui chegar
Am
Muitas perseguições eu tive que encarar
G
No balanço do pé na batida da mão vou cortando o estradão
Am
De norte a sul de leste a oeste essa vida me enriquece
G
Me faz crescer me faz voar a bandeira da fé eu vou levar
E Am
Enquanto ele não voltar pra esse mundo eu vou pregar

G
Levante a mão que eu vou profetizar chega de sofrer pare de chorar
Am
Que a vitória vai chegar
G
Vai vai vai vai
Am
Que a vitória vai chegar

F C
O-o-o-ô eu vou levando paz e amor
G E Am
O-o-o-ô foi esse Deus que me salvou

F C
O-o-o-ô eu vou levando paz e amor
G E Am
O-o-o-ô foi esse Deus que me salvou

G
Levante a mão que eu vou profetizar chega de sofrer pare de chorar
Am
Que a vitória vai chegar
G
Vai vai vai vai
Am
Que a vitória vai chegar

F C
O-o-o-ô eu vou levando paz e amor
G E Am
O-o-o-ô foi esse Deus que me salvou

F C
O-o-o-ô eu vou levando paz e amor
G E Am
O-o-o-ô foi esse Deus que me salvou

F C
O-o-o-ô eu vou levando paz e amor
G E Am
O-o-o-ô foi esse Deus que me salvou

F C
O-o-o-ô eu vou levando paz e amor
G E Am
O-o-o-ô foi esse Deus que me salvou

G Am
Sacudi a poeira do pé e cantei Jesus Cristo é o meu Rei