terça-feira, 12 de agosto de 2014

Catedral - Enquanto o Sol Brilhar


Banda: Catedral
Ano: 2007
Gravadora: New Music
Novo clipe da Banda Catedral, Enquanto o Sol Brilhar. Uma das maiores bandas de pop-rock / rock-mpb - que mais vendem no Brasil.
Cifra da música
Enquanto o Sol Brilhar
Catedral
Compositor: Kim
Tom: G
Intro G D Am C
Solo:
E|---------------------------------------------------------|
A|---------------------------------------------------------|
D|---------------------------------------------------------|
G|--0-0-4--4p2--0h2--2h4--4-4--4p2--0--2/4--|
B|---------------------------------------------------------|
E|---------------------------------------------------------|

E|-------------------------------------------------|
A|--------------------------------------------------|
D|-------------------------------------------------|
G|-4-4--4p2--0--2h4p2--2-0--2p0--2~ --|
B|-------------------------------------------------|
E|-------------------------------------------------|

E|---------------------------------------------------------|
A|----------------------------------2h4----4------------|
D|---------------------2-2--2p0-------2---2h4--2---|
G|-2-2--4p2--0-4-------------------------------------|
B|---------------------------------------------------------|
E|---------------------------------------------------------|

E|-----------------------------------------------------------------|
A|------------------------------------------------------------------|
D|-5--------------------------5--------------------------5-------|
G|---5h7p5--5p4--5p4-----5h7p5--5p4--5p4------2---|
B|-----------------------------------------------------------------|
E|-----------------------------------------------------------------|

E|-----------------------------------------------------------------------------|
A|-----------------------------------------------------------------------------|
D|-----------------------------------------------------------------------------|
G|-2/4--4-4--4p2--0-4--4-4--4p2--0--2h4p2--2--0h2p0--2~ --|
B|-----------------------------------------------------------------------------|
E|-----------------------------------------------------------------------------|

E|-----------------------------------------------------------|
A|------------------------------------2h4----4------------|
D|----------------------2-2--2p0--------2----2h4--2--|
G|--2-2--4p2--0-4--------------------------------------|
B|-----------------------------------------------------------|
E|-----------------------------------------------------------|

E|-----------------------------------------------------------------|
A|------------------------------------------------------------------|
D|-5-------------------------5---------------------------5-------|
G|---5h7p5--5p4--5p4-----5h7p5--5p4--5p4-----2-0-|
B|-----------------------------------------------------------------|
E|-----------------------------------------------------------------|
G D
Dia a dia é bom viver
Am
Jamais cansa a vida, assim
C
Como as nuvens lá do céu
G
E ganhar da vida em si
D Am
Inexperiência e esperar
C
Esperança de amar
G
Rosa louca dos ventos
D
Presa a copa do chapéu
Am
Sei que tudo se transforma
C Cm
Mas o amor prevalecerá
G
Enquanto o sol brilhar
D
E o dia amanhecer
Am
Eu sei que o meu querer
C
Será sempre você
G
Enquanto o sol brilhar
D
E a gente percorrer
Am
Por essa estrada onde o medo nunca teve um lugar
C Cm
Sera nossa historia enquanto o sol brilhar
( G D Am C )
G
Nosso amor vai prosseguir
D Am
Todo dia vai recomeçar
C
Sei que a vida é assim
G
Não quero lembranças sei
D Am
Perdi tantas vezes, não tentei
C
O medo venceu no fim
G
Mas atiro em suas mãos
D
Distraídas uma flor
Am
A rosa dos sonhos meus
C Cm
E assim terás o meu amor
G
Enquanto o sol brilhar
D
E o dia amanhecer
Am
Eu sei que o meu querer
C
Será sempre você
G
Enquanto o sol brilhar
D
E a gente percorrer
Am
Por essa estrada onde o medo nunca teve um lugar
C
Sera nossa historia enquanto o sol brilhar