segunda-feira, 21 de julho de 2014

Irmãos Viana - Dia de Sol



Conhea os filmes gospel que vo passar nos cinemas do Brasil: www.visaoespiritual.com.br/cinema.html


Cifra da música


Dia de Sol


Tom: F#
Intro: F# C# B F# D#m G#m C# B F# B/F# F# B/F#

B F#
E|-----------------------------------------------------------------------|
B|-----------------------------------------------------------------------|
G|--10--11--11/13--11--10-----------------11--11--11p10------------------|
D|-------------------------11---11/13---------------------11--11h13------|
A|-----------------------------------------------------------------------|
E|-----------------------------------------------------------------------|

G#m C# F#
E|------------------------------------------------------|
B|------------------------------------------------------|
G|------------------------------------------------------|
D|---8--9--9b11r9---8--8/6----6--8--8b9r8---6--6/4------|
A|------------------------------------------------------|
E|------------------------------------------------------|

F# B
E|--------------------------4--6/7--6--------------|
B|-----------------4--6----------------------------|
G|----------4--6------------------------4--4/6-----|
D|----4--6-----------------------------------------|
A|-------------------------------------------------|
E|-------------------------------------------------|


F#
Eu andei sem destino, perdi a razão
C#
Na estrada da vida eu fui na contra mão
G#m G#m/F# C#/F
Mergulhei de cabeça no abismo sem fim
B C# F# B/F#
Loucura e tristeza eram partes de mim

F#
No terrível espinho do pecado eu pisei
C#
A ponte entre a vida e a morte eu cruzei
G#m
No outro lado eu vi meus pedaços no chão
B F# F#7
Minha alma vagava na escuridão
B
Das garras da morte o Senhor me arrancou
F# D#m
Me mostrou a verdade que eu nunca quis ver
G#m C# F#
Acordei de um pesadelo e voltei a viver

C#
Eu hoje estou bem, mas já estive mal
B
Sou dia de sol, mas já fui temporal
F# C# F#/C# C#
Fui barco a deriva, fui noite sem lua, verão sem calor
C#
Hoje eu sou verdade, mas já fui engano
B
Já fui fonte seca, Hoje eu sou um oceano
F# C# F#
A alma ferida, coração quebrado, Jesus consertou

(Solo)

G#m C# F# B F#
E|---------------------------------------------------------------------|
B|---------------------------------------------------------------------|
G|--------3------3/4----3----3b4r3-------------------------------------|
D|--4--6----6--4------6-------------6--4--3-----------6b8r6---4---4----|
A|----------------------------------------------4--4-------------------|
E|---------------------------------------------------------------------|


F#
No terrível espinho ...




Produção: Gravadora Ebenezer