segunda-feira, 28 de abril de 2014

Marquinhos Gomes e Péricles - Ele não desiste de você

Marquinhos Gomes e Péricles cantando "Ele não desiste de você". Clipe oficial 2012. http://www.marquinhosgomesoficial.com/site/


Cifra da música


Ele Não Desiste de Você 
Marquinho Gomes


Tom: C
Intro 2x:

C7+ G9 Am9/G F9
E|---------------------------------------------------------|
B|--------5/6-5~------------------6~5----------------------|
G|-------------------5/7~-5----------------5~--------------|
D|--3/5~---------3/5--------3/5--------7-------------------|
A|---------------------------------------------------------|
E|---------------------------------------------------------|


C G/B
Não importa quem você é
Am
Não importa o que você fez
F9 C
Jesus conhece o seu interior também
G/B
Quantas vezes você caiu
Am
Tentando acertar
F C
Mais a tristeza e o desespero te fizeram chorar
G/B
Não importa pra onde você foi
Am
Se na escuridão da noite
F G
Ele apaga o seu passado e não desiste de você

C
Ele não desiste de você
G/B
Ele se importa com você
Am
Ele compreende seu caminhar
F
Nunca vi amor tão grande assim

Solo 2x:

E|---------------------------------------------------------|
B|--------5/6-5~------------------6~5----------------------|
G|-------------------5/7~-5----------------5~--------------|
D|--3/5~---------3/5--------3/5--------7-------------------|
A|---------------------------------------------------------|
E|---------------------------------------------------------|