domingo, 27 de abril de 2014

Kleber Lucas - Vou deixar na cruz

"Vou deixar na Cruz" é Faixa do CD Profeta da Esperança.


Cifra da Música


Vou Deixar Na Cruz
Kleber Lucas
Compositor: Kleber Lucas


Tom: F
Solo Teclado: Dm7 Bb9 F/A C9 Dm7 Bb9 F/A
Intro 2x: se quiserem podem usar durante o refrão Obs: a parte (olho pra você) e()
(Vou deixar na cruz) (tudo o que passou) (tudo que ficou pra trás)
E|------------------ |------------------ |--------------------
B|------------------ |------------------ |--------------------
G|------------------ |------------------ |--------------------
D|-3-2-------------- |-3-2-------------- |-3-2-0--------------
A|----3-0--5-------- |----0-3--5-------- |------3-0-----------
E|------------------ |------------------ |-------3/5--3-3-0h3-5

(Olho pra você) (corro pra você) (O Seu amor me chama)
|------------------ |-------------------|--------------------
|------------------ |-------------------|--------------------
|------------------ |-------------------|--------------------
|-3-2-------------- |-3-2---------------|-3-2-0--------------
|----3-0--5-------- |----0-3--5---------|------3-0-----------
|------------------ |-------------------|-------1/3--1-1-0h3-5

F
Sua morte ali na cruz
F F7M (utilizado na primeira vez)
Carregando a minha dor
Bb Bb7M (utilizado na primeira vez)
Você se expôs por mim
F
Se entregou em meu lugar
F F7M (utilizado na primeira vez)
E me deu uma nova chance
Bb Bb7M (utilizado na primeira vez)
Eu vou recomeçar

Dm Bb
Vou deixar na cruz tudo o que passou
F/A C4 C
Tudo o que ficou pra trás
Dm7 Bb
Olho pra você, corro pra Você
F/A F
O Seu amor me chama

C Gm F
Eu dependo desse amor, do Seu amor mais que tudo
C9 Gm F
Eu confio que esse amor tem poder pra curar dores


Solo guitarra: C Gm F (2x)

Dm Bb
Vou deixar na cruz tudo o que passou
F C9
Tudo o que ficou pra trás
Dm Bb
Olho pra você, corro pra Você
F/A F
O Seu amor me chama

solo original -- já corrigido galera
E|---18b---------17-17b------------------------------------------------------------|
B|-----------------------15-15~---15/18\13~------8h10-----8----8-10-10/11-10-----------|
G|---------17-17-------------------------------10----------10--10-10----10---5-5ah---|
D|---------------------------------------------------------------------------------|
A|---------------------------------------------------------------------------------|
E|---------------------------------------------------------------------------------|

E|--------12-13--------------------------------------------------------------------|
B|---15b---------15b---------13-15-15b--15~-----8-10-10/11-10~---------------------|
G|---------------------12/14-------------------------------------------------------|
D|---------------------------------------------------------------------------------|
A|---------------------------------------------------------------------------------|
E|---------------------------------------------------------------------------------|




Autor: Kleber Lucas, Valmir Bessa e Duda Andrade
Direção: Alex Passos
Roteiro: Alex Passos
Produção executiva: Mk Music